ISO-10303-21;
HEADER;
/****************************************************************
 * Generated by software with PDE/Lib inside                    *
 * PDElib Version v51a, created Thu 01/14/2010                  *
 * ITI Transcendata (http://www.transcendata.com/)              *
 ****************************************************************/
FILE_DESCRIPTION((''),'2;1');
FILE_NAME('C:\\Users\\DLamberti\\Desktop\\DWG & STEP\S\4S  GF-Shop\\STEP`s\\Gasfeder Stahl 8-19-250.stp','2015-10-28T15:16:12',('DLamberti'),(''),'Autodesk Inventor 2011','Autodesk Inventor 2011','');
FILE_SCHEMA(('AUTOMOTIVE_DESIGN { 1 0 10303 214 1 1 1 1 }'));
ENDSEC;
DATA;
#5=APPLICATION_CONTEXT('automotive design');
#6=APPLICATION_PROTOCOL_DEFINITION('International Standard','automotive_design',2001,#5);
#7=PRODUCT_CONTEXT('',#5,'mechanical');
#8=PRODUCT('BaugruppeUmleg','BaugruppeUmleg',$,(#7));
#9=PRODUCT_RELATED_PRODUCT_CATEGORY('part',$,(#8));
#10=PRODUCT_DEFINITION_FORMATION('',$,#8);
#11=PRODUCT_DEFINITION_CONTEXT('part definition',#5,'design');
#12=PRODUCT_DEFINITION('',$,#10,#11);
#18=(NAMED_UNIT(*)PLANE_ANGLE_UNIT()SI_UNIT($,.RADIAN.));
#19=DIMENSIONAL_EXPONENTS(0.0,0.0,0.0,0.0,0.0,0.0,0.0);
#20=PLANE_ANGLE_MEASURE_WITH_UNIT(PLANE_ANGLE_MEASURE(0.017453292500000),#18);
#24=(CONVERSION_BASED_UNIT('DEGREE',#20)NAMED_UNIT(#19)PLANE_ANGLE_UNIT());
#28=(NAMED_UNIT(*)SI_UNIT($,.STERADIAN.)SOLID_ANGLE_UNIT());
#32=(LENGTH_UNIT()NAMED_UNIT(*)SI_UNIT(.MILLI.,.METRE.));
#34=UNCERTAINTY_MEASURE_WITH_UNIT(LENGTH_MEASURE(0.010000000000000),#32,'DISTANCE_ACCURACY_VALUE','');
#36=(GEOMETRIC_REPRESENTATION_CONTEXT(3)GLOBAL_UNCERTAINTY_ASSIGNED_CONTEXT((#34))GLOBAL_UNIT_ASSIGNED_CONTEXT((#24,#28,#32))REPRESENTATION_CONTEXT('None','None'));
#37=AXIS2_PLACEMENT_3D('',#38,#39,#40);
#38=CARTESIAN_POINT('',(0.0,0.0,0.0));
#39=DIRECTION('',(0.0,0.0,1.0));
#40=DIRECTION('',(1.0,0.0,0.0));
#41=SHAPE_REPRESENTATION('',(#37,#344,#474,#625,#637),#36);
#42=PRODUCT_DEFINITION_SHAPE('','',#12);
#43=SHAPE_DEFINITION_REPRESENTATION(#42,#41);
#44=APPLICATION_CONTEXT('automotive design');
#45=APPLICATION_PROTOCOL_DEFINITION('International Standard','automotive_design',2001,#44);
#46=PRODUCT_CONTEXT('',#44,'mechanical');
#47=PRODUCT('zylinder-06','zylinder-06',$,(#46));
#48=PRODUCT_RELATED_PRODUCT_CATEGORY('part',$,(#47));
#49=PRODUCT_DEFINITION_FORMATION('',$,#47);
#50=PRODUCT_DEFINITION_CONTEXT('part definition',#44,'design');
#51=PRODUCT_DEFINITION('',$,#49,#50);
#57=(NAMED_UNIT(*)PLANE_ANGLE_UNIT()SI_UNIT($,.RADIAN.));
#58=DIMENSIONAL_EXPONENTS(0.0,0.0,0.0,0.0,0.0,0.0,0.0);
#59=PLANE_ANGLE_MEASURE_WITH_UNIT(PLANE_ANGLE_MEASURE(0.017453292500000),#57);
#63=(CONVERSION_BASED_UNIT('DEGREE',#59)NAMED_UNIT(#58)PLANE_ANGLE_UNIT());
#67=(NAMED_UNIT(*)SI_UNIT($,.STERADIAN.)SOLID_ANGLE_UNIT());
#71=(LENGTH_UNIT()NAMED_UNIT(*)SI_UNIT(.MILLI.,.METRE.));
#73=UNCERTAINTY_MEASURE_WITH_UNIT(LENGTH_MEASURE(0.010000000000000),#71,'DISTANCE_ACCURACY_VALUE','');
#75=(GEOMETRIC_REPRESENTATION_CONTEXT(3)GLOBAL_UNCERTAINTY_ASSIGNED_CONTEXT((#73))GLOBAL_UNIT_ASSIGNED_CONTEXT((#63,#67,#71))REPRESENTATION_CONTEXT('None','None'));
#76=AXIS2_PLACEMENT_3D('',#77,#78,#79);
#77=CARTESIAN_POINT('',(0.0,0.0,0.0));
#78=DIRECTION('',(0.0,0.0,1.0));
#79=DIRECTION('',(1.0,0.0,0.0));
#80=SHAPE_REPRESENTATION('',(#76),#75);
#81=PRODUCT_DEFINITION_SHAPE('','',#51);
#82=SHAPE_DEFINITION_REPRESENTATION(#81,#80);
#88=(NAMED_UNIT(*)PLANE_ANGLE_UNIT()SI_UNIT($,.RADIAN.));
#89=DIMENSIONAL_EXPONENTS(0.0,0.0,0.0,0.0,0.0,0.0,0.0);
#90=PLANE_ANGLE_MEASURE_WITH_UNIT(PLANE_ANGLE_MEASURE(0.017453292500000),#88);
#94=(CONVERSION_BASED_UNIT('DEGREE',#90)NAMED_UNIT(#89)PLANE_ANGLE_UNIT());
#98=(NAMED_UNIT(*)SI_UNIT($,.STERADIAN.)SOLID_ANGLE_UNIT());
#102=(LENGTH_UNIT()NAMED_UNIT(*)SI_UNIT(.MILLI.,.METRE.));
#104=UNCERTAINTY_MEASURE_WITH_UNIT(LENGTH_MEASURE(0.000001000000000),#102,'DISTANCE_ACCURACY_VALUE','');
#106=(GEOMETRIC_REPRESENTATION_CONTEXT(3)GLOBAL_UNCERTAINTY_ASSIGNED_CONTEXT((#104))GLOBAL_UNIT_ASSIGNED_CONTEXT((#94,#98,#102))REPRESENTATION_CONTEXT('','3D'));
#107=CARTESIAN_POINT('',(6.687059837324708,1.207994E-015,0.0));
#108=DIRECTION('',(1.0,2.220446E-016,-6.590754E-033));
#109=DIRECTION('',(0.0,1.0,0.0));
#110=AXIS2_PLACEMENT_3D('',#107,#108,#109);
#111=TOROIDAL_SURFACE('',#110,4.999999999999992,4.500000000000000);
#112=CARTESIAN_POINT('',(2.249999999999999,5.750000000000002,0.0));
#113=VERTEX_POINT('',#112);
#114=CARTESIAN_POINT('',(2.250000000000000,4.064545E-016,0.0));
#115=DIRECTION('',(1.0,0.0,0.0));
#116=DIRECTION('',(0.0,1.0,0.0));
#117=AXIS2_PLACEMENT_3D('',#114,#115,#116);
#118=CIRCLE('',#117,5.750000000000002);
#119=EDGE_CURVE('',#113,#113,#118,.T.);
#120=ORIENTED_EDGE('',*,*,#119,.T.);
#121=EDGE_LOOP('',(#120));
#122=FACE_OUTER_BOUND('',#121,.T.);
#123=CARTESIAN_POINT('',(6.687059837324709,-9.499999999999991,2.675853E-015));
#124=VERTEX_POINT('',#123);
#125=CARTESIAN_POINT('',(6.687059837324707,1.207994E-015,8.048928E-048));
#126=DIRECTION('',(-1.0,0.0,0.0));
#127=DIRECTION('',(0.0,1.0,0.0));
#128=AXIS2_PLACEMENT_3D('',#125,#126,#127);
#129=CIRCLE('',#128,9.499999999999991);
#130=EDGE_CURVE('',#124,#124,#129,.T.);
#131=ORIENTED_EDGE('',*,*,#130,.T.);
#132=EDGE_LOOP('',(#131));
#133=FACE_BOUND('',#132,.T.);
#134=ADVANCED_FACE('',(#122,#133),#111,.T.);
#135=CARTESIAN_POINT('',(147.499999999999970,2.664535E-014,0.0));
#136=DIRECTION('',(1.0,1.806465E-016,0.0));
#137=DIRECTION('',(0.0,1.0,0.0));
#138=AXIS2_PLACEMENT_3D('',#135,#136,#137);
#139=CYLINDRICAL_SURFACE('',#138,9.499999999999991);
#140=CARTESIAN_POINT('',(288.312940162675260,-9.499999999999938,3.490243E-016));
#141=VERTEX_POINT('',#140);
#142=CARTESIAN_POINT('',(288.312940162675260,5.208271E-014,-1.747771E-094));
#143=DIRECTION('',(1.0,0.0,0.0));
#144=DIRECTION('',(0.0,1.0,0.0));
#145=AXIS2_PLACEMENT_3D('',#142,#143,#144);
#146=CIRCLE('',#145,9.499999999999989);
#147=EDGE_CURVE('',#141,#141,#146,.T.);
#148=ORIENTED_EDGE('',*,*,#147,.F.);
#149=EDGE_LOOP('',(#148));
#150=FACE_OUTER_BOUND('',#149,.T.);
#151=ORIENTED_EDGE('',*,*,#130,.F.);
#152=EDGE_LOOP('',(#151));
#153=FACE_BOUND('',#152,.T.);
#154=ADVANCED_FACE('',(#150,#153),#139,.T.);
#155=CARTESIAN_POINT('',(288.312940162675260,5.208271E-014,0.0));
#156=DIRECTION('',(-1.0,-4.578654E-048,-2.875965E-032));
#157=DIRECTION('',(0.0,1.0,0.0));
#158=AXIS2_PLACEMENT_3D('',#155,#156,#157);
#159=TOROIDAL_SURFACE('',#158,4.999999999999989,4.500000000000000);
#160=ORIENTED_EDGE('',*,*,#147,.T.);
#161=EDGE_LOOP('',(#160));
#162=FACE_OUTER_BOUND('',#161,.T.);
#163=CARTESIAN_POINT('',(292.749999999999940,5.750000000000055,0.0));
#164=VERTEX_POINT('',#163);
#165=CARTESIAN_POINT('',(292.749999999999940,5.288425E-014,0.0));
#166=DIRECTION('',(1.0,0.0,0.0));
#167=DIRECTION('',(0.0,1.0,0.0));
#168=AXIS2_PLACEMENT_3D('',#165,#166,#167);
#169=CIRCLE('',#168,5.750000000000002);
#170=EDGE_CURVE('',#164,#164,#169,.T.);
#171=ORIENTED_EDGE('',*,*,#170,.F.);
#172=EDGE_LOOP('',(#171));
#173=FACE_BOUND('',#172,.T.);
#174=ADVANCED_FACE('',(#162,#173),#159,.T.);
#175=CARTESIAN_POINT('',(0.500000000000001,9.032323E-017,0.0));
#176=DIRECTION('',(1.0,1.806465E-016,0.0));
#177=DIRECTION('',(0.0,1.0,0.0));
#178=AXIS2_PLACEMENT_3D('',#175,#176,#177);
#179=CYLINDRICAL_SURFACE('',#178,6.900000000000000);
#180=CARTESIAN_POINT('',(1.0,6.900000000000000,0.0));
#181=VERTEX_POINT('',#180);
#182=CARTESIAN_POINT('',(1.000000000000001,1.806465E-016,0.0));
#183=DIRECTION('',(1.0,0.0,0.0));
#184=DIRECTION('',(0.0,1.0,0.0));
#185=AXIS2_PLACEMENT_3D('',#182,#183,#184);
#186=CIRCLE('',#185,6.900000000000000);
#187=EDGE_CURVE('',#181,#181,#186,.T.);
#188=ORIENTED_EDGE('',*,*,#187,.F.);
#189=EDGE_LOOP('',(#188));
#190=FACE_OUTER_BOUND('',#189,.T.);
#191=CARTESIAN_POINT('',(0.0,6.900000000000002,0.0));
#192=VERTEX_POINT('',#191);
#193=CARTESIAN_POINT('',(1.246461E-015,2.251687E-031,0.0));
#194=DIRECTION('',(1.0,0.0,0.0));
#195=DIRECTION('',(0.0,1.0,0.0));
#196=AXIS2_PLACEMENT_3D('',#193,#194,#195);
#197=CIRCLE('',#196,6.900000000000002);
#198=EDGE_CURVE('',#192,#192,#197,.T.);
#199=ORIENTED_EDGE('',*,*,#198,.T.);
#200=EDGE_LOOP('',(#199));
#201=FACE_BOUND('',#200,.T.);
#202=ADVANCED_FACE('',(#190,#201),#179,.T.);
#203=CARTESIAN_POINT('',(1.575000000000000,2.845182E-016,0.0));
#204=DIRECTION('',(-1.0,-1.806465E-016,0.0));
#205=DIRECTION('',(0.0,1.0,0.0));
#206=AXIS2_PLACEMENT_3D('',#203,#204,#205);
#207=CONICAL_SURFACE('',#206,6.325000000000001,44.999999999999986);
#208=CARTESIAN_POINT('',(2.149999999999999,5.750000000000002,0.0));
#209=VERTEX_POINT('',#208);
#210=CARTESIAN_POINT('',(2.150000000000000,3.883899E-016,0.0));
#211=DIRECTION('',(1.0,0.0,0.0));
#212=DIRECTION('',(0.0,1.0,0.0));
#213=AXIS2_PLACEMENT_3D('',#210,#211,#212);
#214=CIRCLE('',#213,5.750000000000002);
#215=EDGE_CURVE('',#209,#209,#214,.T.);
#216=ORIENTED_EDGE('',*,*,#215,.F.);
#217=EDGE_LOOP('',(#216));
#218=FACE_OUTER_BOUND('',#217,.T.);
#219=ORIENTED_EDGE('',*,*,#187,.T.);
#220=EDGE_LOOP('',(#219));
#221=FACE_BOUND('',#220,.T.);
#222=ADVANCED_FACE('',(#218,#221),#207,.T.);
#223=CARTESIAN_POINT('',(2.200000000000000,3.974222E-016,0.0));
#224=DIRECTION('',(1.0,1.806465E-016,0.0));
#225=DIRECTION('',(0.0,1.0,0.0));
#226=AXIS2_PLACEMENT_3D('',#223,#224,#225);
#227=CYLINDRICAL_SURFACE('',#226,5.750000000000002);
#228=ORIENTED_EDGE('',*,*,#119,.F.);
#229=EDGE_LOOP('',(#228));
#230=FACE_OUTER_BOUND('',#229,.T.);
#231=ORIENTED_EDGE('',*,*,#215,.T.);
#232=EDGE_LOOP('',(#231));
#233=FACE_BOUND('',#232,.T.);
#234=ADVANCED_FACE('',(#230,#233),#227,.T.);
#235=CARTESIAN_POINT('',(292.799999999999950,5.289328E-014,0.0));
#236=DIRECTION('',(1.0,1.806465E-016,0.0));
#237=DIRECTION('',(0.0,1.0,0.0));
#238=AXIS2_PLACEMENT_3D('',#235,#236,#237);
#239=CYLINDRICAL_SURFACE('',#238,5.750000000000004);
#240=CARTESIAN_POINT('',(292.850000000000020,5.750000000000060,0.0));
#241=VERTEX_POINT('',#240);
#242=CARTESIAN_POINT('',(292.850000000000020,5.290232E-014,0.0));
#243=DIRECTION('',(1.0,0.0,0.0));
#244=DIRECTION('',(0.0,1.0,0.0));
#245=AXIS2_PLACEMENT_3D('',#242,#243,#244);
#246=CIRCLE('',#245,5.750000000000006);
#247=EDGE_CURVE('',#241,#241,#246,.T.);
#248=ORIENTED_EDGE('',*,*,#247,.F.);
#249=EDGE_LOOP('',(#248));
#250=FACE_OUTER_BOUND('',#249,.T.);
#251=ORIENTED_EDGE('',*,*,#170,.T.);
#252=EDGE_LOOP('',(#251));
#253=FACE_BOUND('',#252,.T.);
#254=ADVANCED_FACE('',(#250,#253),#239,.T.);
#255=CARTESIAN_POINT('',(293.425000000000010,5.300619E-014,0.0));
#256=DIRECTION('',(1.0,1.806465E-016,0.0));
#257=DIRECTION('',(0.0,1.0,0.0));
#258=AXIS2_PLACEMENT_3D('',#255,#256,#257);
#259=CONICAL_SURFACE('',#258,6.325000000000002,45.000000000000156);
#260=CARTESIAN_POINT('',(294.0,6.900000000000050,0.0));
#261=VERTEX_POINT('',#260);
#262=CARTESIAN_POINT('',(294.0,5.311006E-014,0.0));
#263=DIRECTION('',(1.0,0.0,0.0));
#264=DIRECTION('',(0.0,1.0,0.0));
#265=AXIS2_PLACEMENT_3D('',#262,#263,#264);
#266=CIRCLE('',#265,6.899999999999997);
#267=EDGE_CURVE('',#261,#261,#266,.T.);
#268=ORIENTED_EDGE('',*,*,#267,.F.);
#269=EDGE_LOOP('',(#268));
#270=FACE_OUTER_BOUND('',#269,.T.);
#271=ORIENTED_EDGE('',*,*,#247,.T.);
#272=EDGE_LOOP('',(#271));
#273=FACE_BOUND('',#272,.T.);
#274=ADVANCED_FACE('',(#270,#273),#259,.T.);
#275=CARTESIAN_POINT('',(294.500000000000000,5.320038E-014,0.0));
#276=DIRECTION('',(1.0,1.806465E-016,0.0));
#277=DIRECTION('',(0.0,1.0,0.0));
#278=AXIS2_PLACEMENT_3D('',#275,#276,#277);
#279=CYLINDRICAL_SURFACE('',#278,6.899999999999994);
#280=CARTESIAN_POINT('',(295.0,6.900000000000044,0.0));
#281=VERTEX_POINT('',#280);
#282=CARTESIAN_POINT('',(295.0,5.329071E-014,0.0));
#283=DIRECTION('',(1.0,0.0,0.0));
#284=DIRECTION('',(0.0,1.0,0.0));
#285=AXIS2_PLACEMENT_3D('',#282,#283,#284);
#286=CIRCLE('',#285,6.899999999999991);
#287=EDGE_CURVE('',#281,#281,#286,.T.);
#288=ORIENTED_EDGE('',*,*,#287,.F.);
#289=EDGE_LOOP('',(#288));
#290=FACE_OUTER_BOUND('',#289,.T.);
#291=ORIENTED_EDGE('',*,*,#267,.T.);
#292=EDGE_LOOP('',(#291));
#293=FACE_BOUND('',#292,.T.);
#294=ADVANCED_FACE('',(#290,#293),#279,.T.);
#295=CARTESIAN_POINT('',(295.0,3.450000000000049,0.0));
#296=DIRECTION('',(1.0,0.0,0.0));
#297=DIRECTION('',(0.0,0.0,-1.0));
#298=AXIS2_PLACEMENT_3D('',#295,#296,#297);
#299=PLANE('',#298);
#300=ORIENTED_EDGE('',*,*,#287,.T.);
#301=EDGE_LOOP('',(#300));
#302=FACE_OUTER_BOUND('',#301,.T.);
#303=ADVANCED_FACE('',(#302),#299,.T.);
#304=CARTESIAN_POINT('',(0.0,3.450000000000001,0.0));
#305=DIRECTION('',(-1.0,0.0,0.0));
#306=DIRECTION('',(0.0,0.0,1.0));
#307=AXIS2_PLACEMENT_3D('',#304,#305,#306);
#308=PLANE('',#307);
#309=ORIENTED_EDGE('',*,*,#198,.F.);
#310=EDGE_LOOP('',(#309));
#311=FACE_OUTER_BOUND('',#310,.T.);
#312=ADVANCED_FACE('',(#311),#308,.T.);
#313=CLOSED_SHELL('',(#134,#154,#174,#202,#222,#234,#254,#274,#294,#303,#312));
#314=MANIFOLD_SOLID_BREP('Volumenk\S\vrper1',#313);
#315=COLOUR_RGB('',0.639216005802155,0.639216005802155,0.686275005340576);
#316=FILL_AREA_STYLE_COLOUR('',#315);
#317=FILL_AREA_STYLE('',(#316));
#318=SURFACE_STYLE_FILL_AREA(#317);
#319=SURFACE_SIDE_STYLE('',(#318));
#320=SURFACE_STYLE_USAGE(.BOTH.,#319);
#321=PRESENTATION_STYLE_ASSIGNMENT((#320));
#322=STYLED_ITEM('',(#321),#134);
#323=STYLED_ITEM('',(#321),#154);
#324=STYLED_ITEM('',(#321),#174);
#325=STYLED_ITEM('',(#321),#202);
#326=STYLED_ITEM('',(#321),#222);
#327=STYLED_ITEM('',(#321),#234);
#328=STYLED_ITEM('',(#321),#254);
#329=STYLED_ITEM('',(#321),#274);
#330=STYLED_ITEM('',(#321),#294);
#331=STYLED_ITEM('',(#321),#303);
#332=STYLED_ITEM('',(#321),#312);
#333=MECHANICAL_DESIGN_GEOMETRIC_PRESENTATION_REPRESENTATION('',(#322,#323,#324,#325,#326,#327,#328,#329,#330,#331,#332,#341,#471,#622),#106);
#334=COLOUR_RGB('Metall - Stahl',0.639216005802155,0.639216005802155,0.686275005340576);
#335=FILL_AREA_STYLE_COLOUR('Metall - Stahl',#334);
#336=FILL_AREA_STYLE('Metall - Stahl',(#335));
#337=SURFACE_STYLE_FILL_AREA(#336);
#338=SURFACE_SIDE_STYLE('Metall - Stahl',(#337));
#339=SURFACE_STYLE_USAGE(.BOTH.,#338);
#340=PRESENTATION_STYLE_ASSIGNMENT((#339));
#341=STYLED_ITEM('',(#340),#314);
#342=ADVANCED_BREP_SHAPE_REPRESENTATION('ABSR',(#314),#75);
#343=SHAPE_REPRESENTATION_RELATIONSHIP('SRR','None',#342,#80);
#344=AXIS2_PLACEMENT_3D('',#345,#346,#347);
#345=CARTESIAN_POINT('',(0.0,0.0,0.0));
#346=DIRECTION('',(0.0,0.0,1.0));
#347=DIRECTION('',(1.0,0.0,0.0));
#348=NEXT_ASSEMBLY_USAGE_OCCURRENCE('zylinder-06:1','zylinder-06:1','zylinder-06:1',#12,#51,'zylinder-06:1');
#349=PRODUCT_DEFINITION_SHAPE('zylinder-06:1','zylinder-06:1',#348);
#350=ITEM_DEFINED_TRANSFORMATION('zylinder-06:1','zylinder-06:1',#76,#344);
#354=(REPRESENTATION_RELATIONSHIP('zylinder-06:1','zylinder-06:1',#80,#41)REPRESENTATION_RELATIONSHIP_WITH_TRANSFORMATION(#350)SHAPE_REPRESENTATION_RELATIONSHIP());
#355=CONTEXT_DEPENDENT_SHAPE_REPRESENTATION(#354,#349);
#356=APPLICATION_CONTEXT('automotive design');
#357=APPLICATION_PROTOCOL_DEFINITION('International Standard','automotive_design',2001,#356);
#358=PRODUCT_CONTEXT('',#356,'mechanical');
#359=PRODUCT('KST_D-08','KST_D-08',$,(#358));
#360=PRODUCT_RELATED_PRODUCT_CATEGORY('part',$,(#359));
#361=PRODUCT_DEFINITION_FORMATION('',$,#359);
#362=PRODUCT_DEFINITION_CONTEXT('part definition',#356,'design');
#363=PRODUCT_DEFINITION('',$,#361,#362);
#369=(NAMED_UNIT(*)PLANE_ANGLE_UNIT()SI_UNIT($,.RADIAN.));
#370=DIMENSIONAL_EXPONENTS(0.0,0.0,0.0,0.0,0.0,0.0,0.0);
#371=PLANE_ANGLE_MEASURE_WITH_UNIT(PLANE_ANGLE_MEASURE(0.017453292500000),#369);
#375=(CONVERSION_BASED_UNIT('DEGREE',#371)NAMED_UNIT(#370)PLANE_ANGLE_UNIT());
#379=(NAMED_UNIT(*)SI_UNIT($,.STERADIAN.)SOLID_ANGLE_UNIT());
#383=(LENGTH_UNIT()NAMED_UNIT(*)SI_UNIT(.MILLI.,.METRE.));
#385=UNCERTAINTY_MEASURE_WITH_UNIT(LENGTH_MEASURE(0.010000000000000),#383,'DISTANCE_ACCURACY_VALUE','');
#387=(GEOMETRIC_REPRESENTATION_CONTEXT(3)GLOBAL_UNCERTAINTY_ASSIGNED_CONTEXT((#385))GLOBAL_UNIT_ASSIGNED_CONTEXT((#375,#379,#383))REPRESENTATION_CONTEXT('None','None'));
#388=AXIS2_PLACEMENT_3D('',#389,#390,#391);
#389=CARTESIAN_POINT('',(0.0,0.0,0.0));
#390=DIRECTION('',(0.0,0.0,1.0));
#391=DIRECTION('',(1.0,0.0,0.0));
#392=SHAPE_REPRESENTATION('',(#388),#387);
#393=PRODUCT_DEFINITION_SHAPE('','',#363);
#394=SHAPE_DEFINITION_REPRESENTATION(#393,#392);
#400=(NAMED_UNIT(*)PLANE_ANGLE_UNIT()SI_UNIT($,.RADIAN.));
#401=DIMENSIONAL_EXPONENTS(0.0,0.0,0.0,0.0,0.0,0.0,0.0);
#402=PLANE_ANGLE_MEASURE_WITH_UNIT(PLANE_ANGLE_MEASURE(0.017453292500000),#400);
#406=(CONVERSION_BASED_UNIT('DEGREE',#402)NAMED_UNIT(#401)PLANE_ANGLE_UNIT());
#410=(NAMED_UNIT(*)SI_UNIT($,.STERADIAN.)SOLID_ANGLE_UNIT());
#414=(LENGTH_UNIT()NAMED_UNIT(*)SI_UNIT(.MILLI.,.METRE.));
#416=UNCERTAINTY_MEASURE_WITH_UNIT(LENGTH_MEASURE(0.000001000000000),#414,'DISTANCE_ACCURACY_VALUE','');
#418=(GEOMETRIC_REPRESENTATION_CONTEXT(3)GLOBAL_UNCERTAINTY_ASSIGNED_CONTEXT((#416))GLOBAL_UNIT_ASSIGNED_CONTEXT((#406,#410,#414))REPRESENTATION_CONTEXT('','3D'));
#419=CARTESIAN_POINT('',(125.0,2.275957E-014,0.0));
#420=DIRECTION('',(1.0,1.820766E-016,0.0));
#421=DIRECTION('',(0.0,1.0,0.0));
#422=AXIS2_PLACEMENT_3D('',#419,#420,#421);
#423=CYLINDRICAL_SURFACE('',#422,4.000000000000007);
#424=CARTESIAN_POINT('',(250.0,4.000000000000068,0.0));
#425=VERTEX_POINT('',#424);
#426=CARTESIAN_POINT('',(250.0,4.551914E-014,0.0));
#427=DIRECTION('',(1.0,0.0,0.0));
#428=DIRECTION('',(0.0,1.0,0.0));
#429=AXIS2_PLACEMENT_3D('',#426,#427,#428);
#430=CIRCLE('',#429,4.000000000000022);
#431=EDGE_CURVE('',#425,#425,#430,.T.);
#432=ORIENTED_EDGE('',*,*,#431,.F.);
#433=EDGE_LOOP('',(#432));
#434=FACE_OUTER_BOUND('',#433,.T.);
#435=CARTESIAN_POINT('',(1.232595E-032,3.999999999999991,0.0));
#436=VERTEX_POINT('',#435);
#437=CARTESIAN_POINT('',(7.283063E-016,1.326075E-031,0.0));
#438=DIRECTION('',(1.0,0.0,0.0));
#439=DIRECTION('',(0.0,1.0,0.0));
#440=AXIS2_PLACEMENT_3D('',#437,#438,#439);
#441=CIRCLE('',#440,3.999999999999991);
#442=EDGE_CURVE('',#436,#436,#441,.T.);
#443=ORIENTED_EDGE('',*,*,#442,.T.);
#444=EDGE_LOOP('',(#443));
#445=FACE_BOUND('',#444,.T.);
#446=ADVANCED_FACE('',(#434,#445),#423,.T.);
#447=CARTESIAN_POINT('',(250.0,2.000000000000057,0.0));
#448=DIRECTION('',(1.0,0.0,0.0));
#449=DIRECTION('',(0.0,0.0,-1.0));
#450=AXIS2_PLACEMENT_3D('',#447,#448,#449);
#451=PLANE('',#450);
#452=ORIENTED_EDGE('',*,*,#431,.T.);
#453=EDGE_LOOP('',(#452));
#454=FACE_OUTER_BOUND('',#453,.T.);
#455=ADVANCED_FACE('',(#454),#451,.T.);
#456=CARTESIAN_POINT('',(6.162976E-033,1.999999999999996,0.0));
#457=DIRECTION('',(-1.0,0.0,0.0));
#458=DIRECTION('',(0.0,0.0,1.0));
#459=AXIS2_PLACEMENT_3D('',#456,#457,#458);
#460=PLANE('',#459);
#461=ORIENTED_EDGE('',*,*,#442,.F.);
#462=EDGE_LOOP('',(#461));
#463=FACE_OUTER_BOUND('',#462,.T.);
#464=ADVANCED_FACE('',(#463),#460,.T.);
#465=CLOSED_SHELL('',(#446,#455,#464));
#466=MANIFOLD_SOLID_BREP('Volumenk\S\vrper1',#465);
#467=STYLED_ITEM('',(#321),#446);
#468=STYLED_ITEM('',(#321),#455);
#469=STYLED_ITEM('',(#321),#464);
#470=MECHANICAL_DESIGN_GEOMETRIC_PRESENTATION_REPRESENTATION('',(#467,#468,#469),#418);
#471=STYLED_ITEM('',(#340),#466);
#472=ADVANCED_BREP_SHAPE_REPRESENTATION('ABSR',(#466),#387);
#473=SHAPE_REPRESENTATION_RELATIONSHIP('SRR','None',#472,#392);
#474=AXIS2_PLACEMENT_3D('',#475,#476,#477);
#475=CARTESIAN_POINT('',(-250.0,-4.516161E-014,0.0));
#476=DIRECTION('',(0.0,0.0,1.0));
#477=DIRECTION('',(1.0,0.0,0.0));
#478=NEXT_ASSEMBLY_USAGE_OCCURRENCE('KST_D-08:1','KST_D-08:1','KST_D-08:1',#12,#363,'KST_D-08:1');
#479=PRODUCT_DEFINITION_SHAPE('KST_D-08:1','KST_D-08:1',#478);
#480=ITEM_DEFINED_TRANSFORMATION('KST_D-08:1','KST_D-08:1',#388,#474);
#484=(REPRESENTATION_RELATIONSHIP('KST_D-08:1','KST_D-08:1',#392,#41)REPRESENTATION_RELATIONSHIP_WITH_TRANSFORMATION(#480)SHAPE_REPRESENTATION_RELATIONSHIP());
#485=CONTEXT_DEPENDENT_SHAPE_REPRESENTATION(#484,#479);
#486=APPLICATION_CONTEXT('automotive design');
#487=APPLICATION_PROTOCOL_DEFINITION('International Standard','automotive_design',2001,#486);
#488=PRODUCT_CONTEXT('',#486,'mechanical');
#489=PRODUCT('Gew-04','Gew-04',$,(#488));
#490=PRODUCT_RELATED_PRODUCT_CATEGORY('part',$,(#489));
#491=PRODUCT_DEFINITION_FORMATION('',$,#489);
#492=PRODUCT_DEFINITION_CONTEXT('part definition',#486,'design');
#493=PRODUCT_DEFINITION('',$,#491,#492);
#499=(NAMED_UNIT(*)PLANE_ANGLE_UNIT()SI_UNIT($,.RADIAN.));
#500=DIMENSIONAL_EXPONENTS(0.0,0.0,0.0,0.0,0.0,0.0,0.0);
#501=PLANE_ANGLE_MEASURE_WITH_UNIT(PLANE_ANGLE_MEASURE(0.017453292500000),#499);
#505=(CONVERSION_BASED_UNIT('DEGREE',#501)NAMED_UNIT(#500)PLANE_ANGLE_UNIT());
#509=(NAMED_UNIT(*)SI_UNIT($,.STERADIAN.)SOLID_ANGLE_UNIT());
#513=(LENGTH_UNIT()NAMED_UNIT(*)SI_UNIT(.MILLI.,.METRE.));
#515=UNCERTAINTY_MEASURE_WITH_UNIT(LENGTH_MEASURE(0.010000000000000),#513,'DISTANCE_ACCURACY_VALUE','');
#517=(GEOMETRIC_REPRESENTATION_CONTEXT(3)GLOBAL_UNCERTAINTY_ASSIGNED_CONTEXT((#515))GLOBAL_UNIT_ASSIGNED_CONTEXT((#505,#509,#513))REPRESENTATION_CONTEXT('None','None'));
#518=AXIS2_PLACEMENT_3D('',#519,#520,#521);
#519=CARTESIAN_POINT('',(0.0,0.0,0.0));
#520=DIRECTION('',(0.0,0.0,1.0));
#521=DIRECTION('',(1.0,0.0,0.0));
#522=SHAPE_REPRESENTATION('',(#518),#517);
#523=PRODUCT_DEFINITION_SHAPE('','',#493);
#524=SHAPE_DEFINITION_REPRESENTATION(#523,#522);
#530=(NAMED_UNIT(*)PLANE_ANGLE_UNIT()SI_UNIT($,.RADIAN.));
#531=DIMENSIONAL_EXPONENTS(0.0,0.0,0.0,0.0,0.0,0.0,0.0);
#532=PLANE_ANGLE_MEASURE_WITH_UNIT(PLANE_ANGLE_MEASURE(0.017453292500000),#530);
#536=(CONVERSION_BASED_UNIT('DEGREE',#532)NAMED_UNIT(#531)PLANE_ANGLE_UNIT());
#540=(NAMED_UNIT(*)SI_UNIT($,.STERADIAN.)SOLID_ANGLE_UNIT());
#544=(LENGTH_UNIT()NAMED_UNIT(*)SI_UNIT(.MILLI.,.METRE.));
#546=UNCERTAINTY_MEASURE_WITH_UNIT(LENGTH_MEASURE(0.000001000000000),#544,'DISTANCE_ACCURACY_VALUE','');
#548=(GEOMETRIC_REPRESENTATION_CONTEXT(3)GLOBAL_UNCERTAINTY_ASSIGNED_CONTEXT((#546))GLOBAL_UNIT_ASSIGNED_CONTEXT((#536,#540,#544))REPRESENTATION_CONTEXT('','3D'));
#549=CARTESIAN_POINT('',(9.599999999999998,2.561284E-015,0.0));
#550=DIRECTION('',(-1.0,-2.668004E-016,0.0));
#551=DIRECTION('',(0.0,-1.0,0.0));
#552=AXIS2_PLACEMENT_3D('',#549,#550,#551);
#553=CONICAL_SURFACE('',#552,3.599999999999998,44.999999999999936);
#554=CARTESIAN_POINT('',(9.199999999999996,4.000000000000001,4.898587E-016));
#555=VERTEX_POINT('',#554);
#556=CARTESIAN_POINT('',(9.199999999999998,2.454564E-015,0.0));
#557=DIRECTION('',(1.0,0.0,0.0));
#558=DIRECTION('',(0.0,-1.0,0.0));
#559=AXIS2_PLACEMENT_3D('',#556,#557,#558);
#560=CIRCLE('',#559,3.999999999999999);
#561=EDGE_CURVE('',#555,#555,#560,.T.);
#562=ORIENTED_EDGE('',*,*,#561,.T.);
#563=EDGE_LOOP('',(#562));
#564=FACE_OUTER_BOUND('',#563,.T.);
#565=CARTESIAN_POINT('',(9.999999999999998,3.200000000000000,-3.918870E-016));
#566=VERTEX_POINT('',#565);
#567=CARTESIAN_POINT('',(10.0,2.668004E-015,0.0));
#568=DIRECTION('',(-1.0,0.0,0.0));
#569=DIRECTION('',(0.0,-1.0,0.0));
#570=AXIS2_PLACEMENT_3D('',#567,#568,#569);
#571=CIRCLE('',#570,3.199999999999998);
#572=EDGE_CURVE('',#566,#566,#571,.T.);
#573=ORIENTED_EDGE('',*,*,#572,.T.);
#574=EDGE_LOOP('',(#573));
#575=FACE_BOUND('',#574,.T.);
#576=ADVANCED_FACE('',(#564,#575),#553,.T.);
#577=CARTESIAN_POINT('',(5.000000000000001,1.334002E-015,0.0));
#578=DIRECTION('',(1.0,2.668004E-016,0.0));
#579=DIRECTION('',(0.0,1.0,0.0));
#580=AXIS2_PLACEMENT_3D('',#577,#578,#579);
#581=CYLINDRICAL_SURFACE('',#580,3.999999999999999);
#582=CARTESIAN_POINT('',(0.0,3.999999999999998,0.0));
#583=VERTEX_POINT('',#582);
#584=CARTESIAN_POINT('',(1.110223E-015,4.930381E-031,0.0));
#585=DIRECTION('',(1.0,0.0,0.0));
#586=DIRECTION('',(0.0,1.0,0.0));
#587=AXIS2_PLACEMENT_3D('',#584,#585,#586);
#588=CIRCLE('',#587,3.999999999999998);
#589=EDGE_CURVE('',#583,#583,#588,.T.);
#590=ORIENTED_EDGE('',*,*,#589,.T.);
#591=EDGE_LOOP('',(#590));
#592=FACE_OUTER_BOUND('',#591,.T.);
#593=ORIENTED_EDGE('',*,*,#561,.F.);
#594=EDGE_LOOP('',(#593));
#595=FACE_BOUND('',#594,.T.);
#596=ADVANCED_FACE('',(#592,#595),#581,.T.);
#597=CARTESIAN_POINT('',(10.0,2.000000000000002,0.0));
#598=DIRECTION('',(1.0,0.0,0.0));
#599=DIRECTION('',(0.0,0.0,-1.0));
#600=AXIS2_PLACEMENT_3D('',#597,#598,#599);
#601=PLANE('',#600);
#602=ORIENTED_EDGE('',*,*,#572,.F.);
#603=EDGE_LOOP('',(#602));
#604=FACE_OUTER_BOUND('',#603,.T.);
#605=ADVANCED_FACE('',(#604),#601,.T.);
#606=CARTESIAN_POINT('',(0.0,1.999999999999999,0.0));
#607=DIRECTION('',(-1.0,0.0,0.0));
#608=DIRECTION('',(0.0,0.0,1.0));
#609=AXIS2_PLACEMENT_3D('',#606,#607,#608);
#610=PLANE('',#609);
#611=ORIENTED_EDGE('',*,*,#589,.F.);
#612=EDGE_LOOP('',(#611));
#613=FACE_OUTER_BOUND('',#612,.T.);
#614=ADVANCED_FACE('',(#613),#610,.T.);
#615=CLOSED_SHELL('',(#576,#596,#605,#614));
#616=MANIFOLD_SOLID_BREP('Volumenk\S\vrper1',#615);
#617=STYLED_ITEM('',(#321),#576);
#618=STYLED_ITEM('',(#321),#596);
#619=STYLED_ITEM('',(#321),#605);
#620=STYLED_ITEM('',(#321),#614);
#621=MECHANICAL_DESIGN_GEOMETRIC_PRESENTATION_REPRESENTATION('',(#617,#618,#619,#620),#548);
#622=STYLED_ITEM('',(#340),#616);
#623=ADVANCED_BREP_SHAPE_REPRESENTATION('ABSR',(#616),#517);
#624=SHAPE_REPRESENTATION_RELATIONSHIP('SRR','None',#623,#522);
#625=AXIS2_PLACEMENT_3D('',#626,#627,#628);
#626=CARTESIAN_POINT('',(-250.0,-4.516161E-014,-2.524355E-028));
#627=DIRECTION('',(-1.185999E-016,-0.140733957990287,0.990047449907531));
#628=DIRECTION('',(-0.999999999999997,8.422082E-016,4.153462E-015));
#629=NEXT_ASSEMBLY_USAGE_OCCURRENCE('Gew-04:4','Gew-04:4','Gew-04:4',#12,#493,'Gew-04:4');
#630=PRODUCT_DEFINITION_SHAPE('Gew-04:4','Gew-04:4',#629);
#631=ITEM_DEFINED_TRANSFORMATION('Gew-04:4','Gew-04:4',#518,#625);
#635=(REPRESENTATION_RELATIONSHIP('Gew-04:4','Gew-04:4',#522,#41)REPRESENTATION_RELATIONSHIP_WITH_TRANSFORMATION(#631)SHAPE_REPRESENTATION_RELATIONSHIP());
#636=CONTEXT_DEPENDENT_SHAPE_REPRESENTATION(#635,#630);
#637=AXIS2_PLACEMENT_3D('',#638,#639,#640);
#638=CARTESIAN_POINT('',(294.999999999999940,5.329071E-014,-1.529498E-029));
#639=DIRECTION('',(5.793197E-031,-8.022806E-015,1.000000000000000));
#640=DIRECTION('',(0.999999999999999,-5.551115E-017,1.042355E-016));
#641=NEXT_ASSEMBLY_USAGE_OCCURRENCE('Gew-04:5','Gew-04:5','Gew-04:5',#12,#493,'Gew-04:5');
#642=PRODUCT_DEFINITION_SHAPE('Gew-04:5','Gew-04:5',#641);
#643=ITEM_DEFINED_TRANSFORMATION('Gew-04:5','Gew-04:5',#518,#637);
#647=(REPRESENTATION_RELATIONSHIP('Gew-04:5','Gew-04:5',#522,#41)REPRESENTATION_RELATIONSHIP_WITH_TRANSFORMATION(#643)SHAPE_REPRESENTATION_RELATIONSHIP());
#648=CONTEXT_DEPENDENT_SHAPE_REPRESENTATION(#647,#642);
ENDSEC;
END-ISO-10303-21;
